View post (Picking hand excercises)

View thread

SLY
Un-Registered User
Joined: 08/08/02
Posts: 1,613
SLY
Un-Registered User
Joined: 08/08/02
Posts: 1,613
11/15/2002 9:34 am
The tab in your first post here is based on the "Blues Box" .. Since you play Rock (any kind of rock) you have to memorize it by hard, with a lot of variations, and apply it to different keys.

Here are some exercises


e---------5---------
b-----5-------8p5---
g-7b----------------
D-------------------
A-------------------
E-------------------



e-------------5----------------5----------
b-------5------------5---8b-----------5---
g-7b--------------------------------------
D-----------------------------------------
A-----------------------------------------
E-----------------------------------------



e------------------------5------------
b-------5---8p5--8b-------------8p5----
g-7b----------------------------------
D-------------------------------------
A-------------------------------------
E-------------------------------------


You'll find one of these variations in many solo's (at least in every Hendrix solo) , and I'm sure you can think of many more , just keep practicing.



[Edited by SLY on 11-15-2002 at 03:36 AM]