What Key?


josh_underwood
Senior Member
Joined: 07/20/00
Posts: 166
josh_underwood
Senior Member
Joined: 07/20/00
Posts: 166
08/25/2000 10:52 pm
Hey What Key Would This Be In. G?

G Em C
E--3--------3----------------------------------
B--3-----3-----3----0--------0------------1--------
G------0------------0------0----0---------0-------
D----0-----------0--2----2----------------2------
A-------------------2--2-----------2------3------
E--3----------------0---------------------0-----

------------------
Life is Hard......
BUT ITS EVEN HARDER IF YOUR STUPID
-------------------------

A Tout Le Monde
A Tout Mes Amis
Je Vous Aime
Je Dois Partir
(To All The World)
(To All My Friends)
(I Love You All)
(I Must Leave)
He's totaly Mad,Crazy,Loony Toony And Even Offty Mc.Goofty!!.... I LIKE HIM!!!!!

-------------------------
Have You Been Drinking??
Yes I Have, Ive Been Drinking From the Well Of Eternal Sadness.
-------------------------
ART THOU BETRAYING THE????!!! THY WILL PAYUS THY ULTIMATE PRICEUS!!! FOR THOU ARE THE GUITARUS WIZARDUS!!!!!
# 1
josh_underwood
Senior Member
Joined: 07/20/00
Posts: 166
josh_underwood
Senior Member
Joined: 07/20/00
Posts: 166
08/25/2000 10:53 pm
Dammit that so messy!!! ummmmmmmmm Give me a little while and i'll have it tabbed up.
He's totaly Mad,Crazy,Loony Toony And Even Offty Mc.Goofty!!.... I LIKE HIM!!!!!

-------------------------
Have You Been Drinking??
Yes I Have, Ive Been Drinking From the Well Of Eternal Sadness.
-------------------------
ART THOU BETRAYING THE????!!! THY WILL PAYUS THY ULTIMATE PRICEUS!!! FOR THOU ARE THE GUITARUS WIZARDUS!!!!!
# 2
josh_underwood
Senior Member
Joined: 07/20/00
Posts: 166
josh_underwood
Senior Member
Joined: 07/20/00
Posts: 166
08/25/2000 11:15 pm
here see if this is better http://www.shymail.com/email/attach/shymail.com/fade_to_black/Song.lnk
He's totaly Mad,Crazy,Loony Toony And Even Offty Mc.Goofty!!.... I LIKE HIM!!!!!

-------------------------
Have You Been Drinking??
Yes I Have, Ive Been Drinking From the Well Of Eternal Sadness.
-------------------------
ART THOU BETRAYING THE????!!! THY WILL PAYUS THY ULTIMATE PRICEUS!!! FOR THOU ARE THE GUITARUS WIZARDUS!!!!!
# 3
Willdridge
Registered User
Joined: 04/04/00
Posts: 527
Willdridge
Registered User
Joined: 04/04/00
Posts: 527
08/27/2000 11:13 am
If those are the only chords in the whole song then it can be considered the key of G...the only other possiblity is the Key of C. If there's an F chord then it'll be C, if there's a D chord it'll be G...
Don't worry too much about me, ignore me long enough and I'll go away.
# 4


Joined: 06/18/24
Posts: 0


Joined: 06/18/24
Posts: 0
10/09/2000 11:40 pm
Here's another one. What key would the progression Em Gm Am A#m be? I'm trying to find a good scale to use to solo over it. E minor sounds reasonable but Em doesn't have the sharp A in it.
# 5
LuigiCabrini
Senior Member
Joined: 06/23/00
Posts: 207
LuigiCabrini
Senior Member
Joined: 06/23/00
Posts: 207
10/10/2000 12:00 am
Well the whole thing isn't in any given key. Having Am and Gm would suggest that the key signature would be that of F major, except that theres a B in the Em chord, where in F major the B should be flatted. The A#m throws everything off. Instead of trying to solo over it with any one scale, treat each chord seperately, if you base your solo around the arpeggios of each chord, using scale notes as passing tones, it'll be fine. What i'm curious about it does that chord progression sound any good? Seems unlikely.
# 6
jbroder
Registered
Joined: 03/01/00
Posts: 211
jbroder
Registered
Joined: 03/01/00
Posts: 211
11/03/2000 7:01 pm
if you want to post tab in the forum, put it in Vb code brackets:

['code']

'tab here'

['\code']


I put quotes in brackets ['code'] above so you could see the brackets. Without the quotes, it does this:


G Em C
E--3--------3----------------------------------
B--3-----3-----3----0--------0------------1--------
G------0------------0------0----0---------0-------
D----0-----------0--2----2----------------2------
A-------------------2--2-----------2------3------
E--3----------------0---------------------0-----

# 7
BarryS
Member
Joined: 07/06/00
Posts: 75
BarryS
Member
Joined: 07/06/00
Posts: 75
11/20/2000 9:53 am
That's a rather nice progression, Josh. Where did you get that tab? Is it part of song, or something you came up with?
# 8
josh_underwood
Senior Member
Joined: 07/20/00
Posts: 166
josh_underwood
Senior Member
Joined: 07/20/00
Posts: 166
11/22/2000 9:47 pm
yeah its part of a song i made up.


check this,


G Em C
E-3-------3---------3--0--------------------0---------------
B-3-----3---3-----3----0-------0---------0--1-------1-------
G-----0---------0------0-----0---0-----0----0-----0---0-----
D---0---------0--------2---2---------2------2---2---------2-
A----------------------2-2---------2--------3-3---------3---
E-3--------------------0------------------------------------
D G
E------2------2---------2---3---------------------------]
B------3----3---3-----3-----3---------------------------]
G---1--2--2---------2-----------------------------------]
D-0------0--------0-------------------------------------]
A-------------------------------------------------------]
E---------------------------3---------------------------]


He's totaly Mad,Crazy,Loony Toony And Even Offty Mc.Goofty!!.... I LIKE HIM!!!!!

-------------------------
Have You Been Drinking??
Yes I Have, Ive Been Drinking From the Well Of Eternal Sadness.
-------------------------
ART THOU BETRAYING THE????!!! THY WILL PAYUS THY ULTIMATE PRICEUS!!! FOR THOU ARE THE GUITARUS WIZARDUS!!!!!
# 9

Please register with a free account to post on the forum.