What Scale Is This?


josh_underwood
Senior Member
Joined: 07/20/00
Posts: 166
josh_underwood
Senior Member
Joined: 07/20/00
Posts: 166
08/20/2000 5:55 pm
What Scale Would This Be?


G-------------------------------9--10--12----
D---------------------9--10-12---------------
A-----------8--10--12------------------------
E-8--10--12----------------------------------
E-----------10-11-13---------------------
B--10-11-13------------------------------

F Dorian?
He's totaly Mad,Crazy,Loony Toony And Even Offty Mc.Goofty!!.... I LIKE HIM!!!!!

-------------------------
Have You Been Drinking??
Yes I Have, Ive Been Drinking From the Well Of Eternal Sadness.
-------------------------
ART THOU BETRAYING THE????!!! THY WILL PAYUS THY ULTIMATE PRICEUS!!! FOR THOU ARE THE GUITARUS WIZARDUS!!!!!
# 1
josh_underwood
Senior Member
Joined: 07/20/00
Posts: 166
josh_underwood
Senior Member
Joined: 07/20/00
Posts: 166
08/20/2000 5:59 pm
Sorry Its So Messy It Should Be
8,10,12 On The Low E String 8,10,12 On The A String 9,10,12 On The D String 9,10,12 on the G String 10,11,13 on the B String And 10,11,13 on the High E string.
He's totaly Mad,Crazy,Loony Toony And Even Offty Mc.Goofty!!.... I LIKE HIM!!!!!

-------------------------
Have You Been Drinking??
Yes I Have, Ive Been Drinking From the Well Of Eternal Sadness.
-------------------------
ART THOU BETRAYING THE????!!! THY WILL PAYUS THY ULTIMATE PRICEUS!!! FOR THOU ARE THE GUITARUS WIZARDUS!!!!!
# 2
Jon Broderick
Administrator
Joined: 10/31/00
Posts: 3,320
Jon Broderick
Administrator
Joined: 10/31/00
Posts: 3,320
08/20/2000 6:46 pm
are you tuned different or something? the first one the strings have the wrong names. the second one runs through an octave of major scale and then does something different on the next octave.

not sure what you had in mind....
Jon Broderick
Guitar Tricks Instructor


www.GuitarTricks.com - Home of Online Guitar Lessons
# 3
josh_underwood
Senior Member
Joined: 07/20/00
Posts: 166
josh_underwood
Senior Member
Joined: 07/20/00
Posts: 166
08/20/2000 7:30 pm
I Ran Out Of Room So I Put The B And E Strings on The Bottom. Its Regular Tuning. If You Dont Under Stand Read What I Said After My Orginal Post.
He's totaly Mad,Crazy,Loony Toony And Even Offty Mc.Goofty!!.... I LIKE HIM!!!!!

-------------------------
Have You Been Drinking??
Yes I Have, Ive Been Drinking From the Well Of Eternal Sadness.
-------------------------
ART THOU BETRAYING THE????!!! THY WILL PAYUS THY ULTIMATE PRICEUS!!! FOR THOU ARE THE GUITARUS WIZARDUS!!!!!
# 4
josh_underwood
Senior Member
Joined: 07/20/00
Posts: 166
josh_underwood
Senior Member
Joined: 07/20/00
Posts: 166
08/20/2000 7:33 pm
HERE

E-----------------------------------------10-12-13-
B---------------------------------10-12-13---------
G-------------------------9-10-12-----------------
D-----------------9-10-12-------------------------
A---------8-10-12---------------------------------
E-8-10-12----------------------------------------
He's totaly Mad,Crazy,Loony Toony And Even Offty Mc.Goofty!!.... I LIKE HIM!!!!!

-------------------------
Have You Been Drinking??
Yes I Have, Ive Been Drinking From the Well Of Eternal Sadness.
-------------------------
ART THOU BETRAYING THE????!!! THY WILL PAYUS THY ULTIMATE PRICEUS!!! FOR THOU ARE THE GUITARUS WIZARDUS!!!!!
# 5


Joined: 06/18/24
Posts: 0


Joined: 06/18/24
Posts: 0
08/20/2000 8:32 pm
That's C Ionian (C Major). Although it ends before it can complete it's octave, it ends on F instead of C.
# 6
ilovebogner10
Member
Joined: 08/03/00
Posts: 40
ilovebogner10
Member
Joined: 08/03/00
Posts: 40
08/24/2000 3:19 pm
Yeah, it should end on 15 on the e.
# 7

Please register with a free account to post on the forum.