View post (Question to Grizzly Man)

View thread

grizzlymint
Registered User
Joined: 01/02/07
Posts: 644
grizzlymint
Registered User
Joined: 01/02/07
Posts: 644
03/29/2007 9:50 pm
Hey man, thanks for listening to my stuff.

Perhaps, you play the chords differently than I did or I don't understand exactly how you tabbed out the riff.

For example, the way I played the power chord progression in the first riff would be:

------------------
------------------
---4--------2------
---4--5--2--2---------
---2--5--2--0---------
------3--0----------

Theres a harmonizing riff in there but I can't remember the chords off the top of my head and all my guitars are in a weird tuning. :o

Second Riff

-------------------------------------------
-------------------------------------------
----------4p2------------------------------
---------------2----------4h5--4-----2--2-
---2-2-2--------------------------5--2--2-
-----------------3--3--3-------------0--0- <----(hit the low e a few times accordingly)

-----------------------------------------------------------
-----------------------------------------------------------
----------4p2----------------------------------------------
---------------2----------4h5--4-----2--2--2-2-2-2--------
---2-2-2--------------------------5--2--2--2-2-2-2--1/2--1
-----------------3--3--3-------------0--0--0-0-0-0--2/3--2

Intro lick 1

---------7p5p0
--0h5h7-------
---------------
--------------- Repeat 4 times
---------------
---------------

--------------
--0h3h5-5p3p0
--------------
-------------- Repeat 4 times
--------------
--------------

---------3p2p0
--0h3h5-------
---------------
--------------- Repeat 4 times
---------------
---------------

---------5p4p0
--0h3h5-------
---------------
--------------- Repeat 4 times
---------------
---------------

*Repeat Intro Lick 1 again*

Then onto:

Intro Lick 2

----------10p9p0
--0h7h10--------
-----------------
----------------- Repeat 4 times
-----------------
-----------------

-----------12p11p0
--0h10h12---------
-------------------
------------------- Repeat 4 times
-------------------
-------------------

*Repeat Intro Lick 2*

Intro Lick 3

-----------15p14p0
--0h12h15---------
-------------------
------------------- Repeat 4 times
-------------------
-------------------

-----------17p16p0
--0h15h17---------
-------------------
------------------- Repeat 4 times
-------------------
-------------------

*Repeat Intro lick 3*

-----------17h19
--0h17h19-------
-----------------
-----------------
-----------------
-----------------

*Repeat Intro lick 1*



And there it is. Maybe what you were playing was that or close to it? Not sure because I didn't understand the way you tabbed those out...

For example what does 5:|9 5 2 7 mean? Please explain.

But thats the tab up there, so if you were close, I commend you on your ability to figure things out by ear.

Thanks again for listening. :D
Let your soul shine. Its better than sunshine. Its better than moonshine. Damn sure better than rain.